ISO-10303-21;
HEADER;
/* Generated by software containing ST-Developer
 * from STEP Tools, Inc. (www.steptools.com) 
 */
/* OPTION: using custom schema-name function */

FILE_DESCRIPTION(
/* description */ (''),
/* implementation_level */ '2;1');

FILE_NAME(
/* name */ 'EX-FD42.stp',
/* time_stamp */ '2023-04-10T10:16:12+08:00',
/* author */ (''),
/* organization */ (''),
/* preprocessor_version */ 'ST-DEVELOPER v16.7',
/* originating_system */ 'SIEMENS PLM Software NX 12.0',
/* authorisation */ '');

FILE_SCHEMA (('AUTOMOTIVE_DESIGN { 1 0 10303 214 3 1 1 1 }'));
ENDSEC;

DATA;
#10=SHAPE_REPRESENTATION_RELATIONSHIP('None',
'relationship between EX-FD42-None and EX-FD42-None',#22,#11);
#11=ADVANCED_BREP_SHAPE_REPRESENTATION('EX-FD42-None',(#32),#495);
#12=SHAPE_DEFINITION_REPRESENTATION(#13,#22);
#13=PRODUCT_DEFINITION_SHAPE('','',#14);
#14=PRODUCT_DEFINITION(' ','',#16,#15);
#15=PRODUCT_DEFINITION_CONTEXT('part definition',#21,'design');
#16=PRODUCT_DEFINITION_FORMATION_WITH_SPECIFIED_SOURCE(' ',' ',#18,
 .NOT_KNOWN.);
#17=PRODUCT_RELATED_PRODUCT_CATEGORY('part','',(#18));
#18=PRODUCT('EX-FD42','EX-FD42',' ',(#19));
#19=PRODUCT_CONTEXT(' ',#21,'mechanical');
#20=APPLICATION_PROTOCOL_DEFINITION('international standard',
'automotive_design',2010,#21);
#21=APPLICATION_CONTEXT(
'core data for automotive mechanical design processes');
#22=SHAPE_REPRESENTATION('EX-FD42-None',(#298),#495);
#23=PRESENTATION_LAYER_ASSIGNMENT('1','Layer 1',(#32));
#24=STYLED_ITEM('',(#25),#32);
#25=PRESENTATION_STYLE_ASSIGNMENT((#26));
#26=SURFACE_STYLE_USAGE(.BOTH.,#27);
#27=SURFACE_SIDE_STYLE('',(#28));
#28=SURFACE_STYLE_FILL_AREA(#29);
#29=FILL_AREA_STYLE('',(#30));
#30=FILL_AREA_STYLE_COLOUR('',#31);
#31=COLOUR_RGB('Orange',1.,0.6,0.);
#32=MANIFOLD_SOLID_BREP('',#33);
#33=CLOSED_SHELL('',(#49,#50,#51,#52,#53,#54,#55,#56,#57,#58,#59,#60,#61,
#62,#63,#64,#65,#66,#67,#68));
#34=CYLINDRICAL_SURFACE('',#314,0.5);
#35=CYLINDRICAL_SURFACE('',#317,0.5);
#36=CYLINDRICAL_SURFACE('',#320,1.);
#37=CYLINDRICAL_SURFACE('',#323,1.);
#38=CYLINDRICAL_SURFACE('',#326,2.85);
#39=CYLINDRICAL_SURFACE('',#330,2.85);
#40=CYLINDRICAL_SURFACE('',#333,1.6);
#41=CYLINDRICAL_SURFACE('',#334,1.6);
#42=FACE_OUTER_BOUND('',#139,.T.);
#43=FACE_OUTER_BOUND('',#140,.T.);
#44=FACE_OUTER_BOUND('',#141,.T.);
#45=FACE_OUTER_BOUND('',#152,.T.);
#46=FACE_OUTER_BOUND('',#155,.T.);
#47=FACE_OUTER_BOUND('',#158,.T.);
#48=FACE_OUTER_BOUND('',#161,.T.);
#49=ADVANCED_FACE('',(#105,#106,#107),#69,.T.);
#50=ADVANCED_FACE('',(#42),#70,.T.);
#51=ADVANCED_FACE('',(#43),#71,.T.);
#52=ADVANCED_FACE('',(#44),#72,.T.);
#53=ADVANCED_FACE('',(#108,#109,#110),#73,.F.);
#54=ADVANCED_FACE('',(#111,#112,#113,#114,#115),#74,.T.);
#55=ADVANCED_FACE('',(#116,#117),#34,.F.);
#56=ADVANCED_FACE('',(#45),#75,.T.);
#57=ADVANCED_FACE('',(#118,#119),#35,.F.);
#58=ADVANCED_FACE('',(#46),#76,.T.);
#59=ADVANCED_FACE('',(#120,#121),#36,.T.);
#60=ADVANCED_FACE('',(#47),#77,.T.);
#61=ADVANCED_FACE('',(#122,#123),#37,.T.);
#62=ADVANCED_FACE('',(#48),#78,.T.);
#63=ADVANCED_FACE('',(#124,#125),#38,.F.);
#64=ADVANCED_FACE('',(#126,#127),#79,.T.);
#65=ADVANCED_FACE('',(#128,#129),#39,.F.);
#66=ADVANCED_FACE('',(#130,#131),#80,.T.);
#67=ADVANCED_FACE('',(#132,#133),#40,.F.);
#68=ADVANCED_FACE('',(#134,#135),#41,.F.);
#69=PLANE('',#301);
#70=PLANE('',#302);
#71=PLANE('',#303);
#72=PLANE('',#304);
#73=PLANE('',#307);
#74=PLANE('',#312);
#75=PLANE('',#315);
#76=PLANE('',#318);
#77=PLANE('',#321);
#78=PLANE('',#324);
#79=PLANE('',#328);
#80=PLANE('',#332);
#81=LINE('',#426,#93);
#82=LINE('',#429,#94);
#83=LINE('',#431,#95);
#84=LINE('',#433,#96);
#85=LINE('',#435,#97);
#86=LINE('',#437,#98);
#87=LINE('',#439,#99);
#88=LINE('',#441,#100);
#89=LINE('',#443,#101);
#90=LINE('',#445,#102);
#91=LINE('',#447,#103);
#92=LINE('',#448,#104);
#93=VECTOR('',#341,1.);
#94=VECTOR('',#342,1.);
#95=VECTOR('',#343,1.);
#96=VECTOR('',#344,1.);
#97=VECTOR('',#347,1.);
#98=VECTOR('',#348,1.);
#99=VECTOR('',#349,1.);
#100=VECTOR('',#352,1.);
#101=VECTOR('',#353,1.);
#102=VECTOR('',#354,1.);
#103=VECTOR('',#357,1.);
#104=VECTOR('',#358,1.);
#105=FACE_BOUND('',#136,.T.);
#106=FACE_BOUND('',#137,.T.);
#107=FACE_BOUND('',#138,.T.);
#108=FACE_BOUND('',#142,.T.);
#109=FACE_BOUND('',#143,.T.);
#110=FACE_BOUND('',#144,.T.);
#111=FACE_BOUND('',#145,.T.);
#112=FACE_BOUND('',#146,.T.);
#113=FACE_BOUND('',#147,.T.);
#114=FACE_BOUND('',#148,.T.);
#115=FACE_BOUND('',#149,.T.);
#116=FACE_BOUND('',#150,.T.);
#117=FACE_BOUND('',#151,.T.);
#118=FACE_BOUND('',#153,.T.);
#119=FACE_BOUND('',#154,.T.);
#120=FACE_BOUND('',#156,.T.);
#121=FACE_BOUND('',#157,.T.);
#122=FACE_BOUND('',#159,.T.);
#123=FACE_BOUND('',#160,.T.);
#124=FACE_BOUND('',#162,.T.);
#125=FACE_BOUND('',#163,.T.);
#126=FACE_BOUND('',#164,.T.);
#127=FACE_BOUND('',#165,.T.);
#128=FACE_BOUND('',#166,.T.);
#129=FACE_BOUND('',#167,.T.);
#130=FACE_BOUND('',#168,.T.);
#131=FACE_BOUND('',#169,.T.);
#132=FACE_BOUND('',#170,.T.);
#133=FACE_BOUND('',#171,.T.);
#134=FACE_BOUND('',#172,.T.);
#135=FACE_BOUND('',#173,.T.);
#136=EDGE_LOOP('',(#174));
#137=EDGE_LOOP('',(#175));
#138=EDGE_LOOP('',(#176,#177,#178,#179));
#139=EDGE_LOOP('',(#180,#181,#182,#183));
#140=EDGE_LOOP('',(#184,#185,#186,#187));
#141=EDGE_LOOP('',(#188,#189,#190,#191));
#142=EDGE_LOOP('',(#192));
#143=EDGE_LOOP('',(#193));
#144=EDGE_LOOP('',(#194,#195,#196,#197));
#145=EDGE_LOOP('',(#198));
#146=EDGE_LOOP('',(#199));
#147=EDGE_LOOP('',(#200));
#148=EDGE_LOOP('',(#201));
#149=EDGE_LOOP('',(#202,#203,#204,#205));
#150=EDGE_LOOP('',(#206));
#151=EDGE_LOOP('',(#207));
#152=EDGE_LOOP('',(#208));
#153=EDGE_LOOP('',(#209));
#154=EDGE_LOOP('',(#210));
#155=EDGE_LOOP('',(#211));
#156=EDGE_LOOP('',(#212));
#157=EDGE_LOOP('',(#213));
#158=EDGE_LOOP('',(#214));
#159=EDGE_LOOP('',(#215));
#160=EDGE_LOOP('',(#216));
#161=EDGE_LOOP('',(#217));
#162=EDGE_LOOP('',(#218));
#163=EDGE_LOOP('',(#219));
#164=EDGE_LOOP('',(#220));
#165=EDGE_LOOP('',(#221));
#166=EDGE_LOOP('',(#222));
#167=EDGE_LOOP('',(#223));
#168=EDGE_LOOP('',(#224));
#169=EDGE_LOOP('',(#225));
#170=EDGE_LOOP('',(#226));
#171=EDGE_LOOP('',(#227));
#172=EDGE_LOOP('',(#228));
#173=EDGE_LOOP('',(#229));
#174=ORIENTED_EDGE('',*,*,#254,.F.);
#175=ORIENTED_EDGE('',*,*,#255,.F.);
#176=ORIENTED_EDGE('',*,*,#256,.F.);
#177=ORIENTED_EDGE('',*,*,#257,.F.);
#178=ORIENTED_EDGE('',*,*,#258,.T.);
#179=ORIENTED_EDGE('',*,*,#259,.T.);
#180=ORIENTED_EDGE('',*,*,#260,.F.);
#181=ORIENTED_EDGE('',*,*,#259,.F.);
#182=ORIENTED_EDGE('',*,*,#261,.T.);
#183=ORIENTED_EDGE('',*,*,#262,.T.);
#184=ORIENTED_EDGE('',*,*,#263,.F.);
#185=ORIENTED_EDGE('',*,*,#262,.F.);
#186=ORIENTED_EDGE('',*,*,#264,.T.);
#187=ORIENTED_EDGE('',*,*,#265,.T.);
#188=ORIENTED_EDGE('',*,*,#266,.F.);
#189=ORIENTED_EDGE('',*,*,#265,.F.);
#190=ORIENTED_EDGE('',*,*,#267,.T.);
#191=ORIENTED_EDGE('',*,*,#257,.T.);
#192=ORIENTED_EDGE('',*,*,#268,.T.);
#193=ORIENTED_EDGE('',*,*,#269,.T.);
#194=ORIENTED_EDGE('',*,*,#258,.F.);
#195=ORIENTED_EDGE('',*,*,#267,.F.);
#196=ORIENTED_EDGE('',*,*,#264,.F.);
#197=ORIENTED_EDGE('',*,*,#261,.F.);
#198=ORIENTED_EDGE('',*,*,#270,.F.);
#199=ORIENTED_EDGE('',*,*,#271,.F.);
#200=ORIENTED_EDGE('',*,*,#272,.F.);
#201=ORIENTED_EDGE('',*,*,#273,.F.);
#202=ORIENTED_EDGE('',*,*,#256,.T.);
#203=ORIENTED_EDGE('',*,*,#260,.T.);
#204=ORIENTED_EDGE('',*,*,#263,.T.);
#205=ORIENTED_EDGE('',*,*,#266,.T.);
#206=ORIENTED_EDGE('',*,*,#274,.T.);
#207=ORIENTED_EDGE('',*,*,#273,.T.);
#208=ORIENTED_EDGE('',*,*,#274,.F.);
#209=ORIENTED_EDGE('',*,*,#275,.T.);
#210=ORIENTED_EDGE('',*,*,#272,.T.);
#211=ORIENTED_EDGE('',*,*,#275,.F.);
#212=ORIENTED_EDGE('',*,*,#276,.F.);
#213=ORIENTED_EDGE('',*,*,#255,.T.);
#214=ORIENTED_EDGE('',*,*,#276,.T.);
#215=ORIENTED_EDGE('',*,*,#277,.F.);
#216=ORIENTED_EDGE('',*,*,#254,.T.);
#217=ORIENTED_EDGE('',*,*,#277,.T.);
#218=ORIENTED_EDGE('',*,*,#278,.T.);
#219=ORIENTED_EDGE('',*,*,#271,.T.);
#220=ORIENTED_EDGE('',*,*,#279,.F.);
#221=ORIENTED_EDGE('',*,*,#278,.F.);
#222=ORIENTED_EDGE('',*,*,#280,.T.);
#223=ORIENTED_EDGE('',*,*,#270,.T.);
#224=ORIENTED_EDGE('',*,*,#281,.F.);
#225=ORIENTED_EDGE('',*,*,#280,.F.);
#226=ORIENTED_EDGE('',*,*,#281,.T.);
#227=ORIENTED_EDGE('',*,*,#268,.F.);
#228=ORIENTED_EDGE('',*,*,#279,.T.);
#229=ORIENTED_EDGE('',*,*,#269,.F.);
#230=VERTEX_POINT('',#423);
#231=VERTEX_POINT('',#425);
#232=VERTEX_POINT('',#427);
#233=VERTEX_POINT('',#428);
#234=VERTEX_POINT('',#430);
#235=VERTEX_POINT('',#432);
#236=VERTEX_POINT('',#436);
#237=VERTEX_POINT('',#438);
#238=VERTEX_POINT('',#442);
#239=VERTEX_POINT('',#444);
#240=VERTEX_POINT('',#451);
#241=VERTEX_POINT('',#453);
#242=VERTEX_POINT('',#456);
#243=VERTEX_POINT('',#458);
#244=VERTEX_POINT('',#460);
#245=VERTEX_POINT('',#462);
#246=VERTEX_POINT('',#465);
#247=VERTEX_POINT('',#469);
#248=VERTEX_POINT('',#473);
#249=VERTEX_POINT('',#477);
#250=VERTEX_POINT('',#481);
#251=VERTEX_POINT('',#484);
#252=VERTEX_POINT('',#487);
#253=VERTEX_POINT('',#490);
#254=EDGE_CURVE('',#230,#230,#282,.T.);
#255=EDGE_CURVE('',#231,#231,#283,.T.);
#256=EDGE_CURVE('',#232,#233,#81,.T.);
#257=EDGE_CURVE('',#234,#232,#82,.T.);
#258=EDGE_CURVE('',#234,#235,#83,.T.);
#259=EDGE_CURVE('',#235,#233,#84,.T.);
#260=EDGE_CURVE('',#233,#236,#85,.T.);
#261=EDGE_CURVE('',#235,#237,#86,.T.);
#262=EDGE_CURVE('',#237,#236,#87,.T.);
#263=EDGE_CURVE('',#236,#238,#88,.T.);
#264=EDGE_CURVE('',#237,#239,#89,.T.);
#265=EDGE_CURVE('',#239,#238,#90,.T.);
#266=EDGE_CURVE('',#238,#232,#91,.T.);
#267=EDGE_CURVE('',#239,#234,#92,.T.);
#268=EDGE_CURVE('',#240,#240,#284,.T.);
#269=EDGE_CURVE('',#241,#241,#285,.T.);
#270=EDGE_CURVE('',#242,#242,#286,.T.);
#271=EDGE_CURVE('',#243,#243,#287,.T.);
#272=EDGE_CURVE('',#244,#244,#288,.T.);
#273=EDGE_CURVE('',#245,#245,#289,.T.);
#274=EDGE_CURVE('',#246,#246,#290,.T.);
#275=EDGE_CURVE('',#247,#247,#291,.T.);
#276=EDGE_CURVE('',#248,#248,#292,.T.);
#277=EDGE_CURVE('',#249,#249,#293,.T.);
#278=EDGE_CURVE('',#250,#250,#294,.T.);
#279=EDGE_CURVE('',#251,#251,#295,.T.);
#280=EDGE_CURVE('',#252,#252,#296,.T.);
#281=EDGE_CURVE('',#253,#253,#297,.T.);
#282=CIRCLE('',#299,1.);
#283=CIRCLE('',#300,1.);
#284=CIRCLE('',#305,1.6);
#285=CIRCLE('',#306,1.6);
#286=CIRCLE('',#308,2.85);
#287=CIRCLE('',#309,2.85);
#288=CIRCLE('',#310,0.5);
#289=CIRCLE('',#311,0.5);
#290=CIRCLE('',#313,0.5);
#291=CIRCLE('',#316,0.5);
#292=CIRCLE('',#319,1.);
#293=CIRCLE('',#322,1.);
#294=CIRCLE('',#325,2.85);
#295=CIRCLE('',#327,1.6);
#296=CIRCLE('',#329,2.85);
#297=CIRCLE('',#331,1.6);
#298=AXIS2_PLACEMENT_3D('',#421,#335,#336);
#299=AXIS2_PLACEMENT_3D('',#422,#337,#338);
#300=AXIS2_PLACEMENT_3D('',#424,#339,#340);
#301=AXIS2_PLACEMENT_3D('',#434,#345,#346);
#302=AXIS2_PLACEMENT_3D('',#440,#350,#351);
#303=AXIS2_PLACEMENT_3D('',#446,#355,#356);
#304=AXIS2_PLACEMENT_3D('',#449,#359,#360);
#305=AXIS2_PLACEMENT_3D('',#450,#361,#362);
#306=AXIS2_PLACEMENT_3D('',#452,#363,#364);
#307=AXIS2_PLACEMENT_3D('',#454,#365,#366);
#308=AXIS2_PLACEMENT_3D('',#455,#367,#368);
#309=AXIS2_PLACEMENT_3D('',#457,#369,#370);
#310=AXIS2_PLACEMENT_3D('',#459,#371,#372);
#311=AXIS2_PLACEMENT_3D('',#461,#373,#374);
#312=AXIS2_PLACEMENT_3D('',#463,#375,#376);
#313=AXIS2_PLACEMENT_3D('',#464,#377,#378);
#314=AXIS2_PLACEMENT_3D('',#466,#379,#380);
#315=AXIS2_PLACEMENT_3D('',#467,#381,#382);
#316=AXIS2_PLACEMENT_3D('',#468,#383,#384);
#317=AXIS2_PLACEMENT_3D('',#470,#385,#386);
#318=AXIS2_PLACEMENT_3D('',#471,#387,#388);
#319=AXIS2_PLACEMENT_3D('',#472,#389,#390);
#320=AXIS2_PLACEMENT_3D('',#474,#391,#392);
#321=AXIS2_PLACEMENT_3D('',#475,#393,#394);
#322=AXIS2_PLACEMENT_3D('',#476,#395,#396);
#323=AXIS2_PLACEMENT_3D('',#478,#397,#398);
#324=AXIS2_PLACEMENT_3D('',#479,#399,#400);
#325=AXIS2_PLACEMENT_3D('',#480,#401,#402);
#326=AXIS2_PLACEMENT_3D('',#482,#403,#404);
#327=AXIS2_PLACEMENT_3D('',#483,#405,#406);
#328=AXIS2_PLACEMENT_3D('',#485,#407,#408);
#329=AXIS2_PLACEMENT_3D('',#486,#409,#410);
#330=AXIS2_PLACEMENT_3D('',#488,#411,#412);
#331=AXIS2_PLACEMENT_3D('',#489,#413,#414);
#332=AXIS2_PLACEMENT_3D('',#491,#415,#416);
#333=AXIS2_PLACEMENT_3D('',#492,#417,#418);
#334=AXIS2_PLACEMENT_3D('',#493,#419,#420);
#335=DIRECTION('',(0.,0.,1.));
#336=DIRECTION('',(1.,0.,0.));
#337=DIRECTION('',(0.,1.,0.));
#338=DIRECTION('',(1.,0.,0.));
#339=DIRECTION('',(0.,1.,0.));
#340=DIRECTION('',(1.,0.,0.));
#341=DIRECTION('',(0.,5.20417042793042E-16,-1.));
#342=DIRECTION('',(-1.,0.,0.));
#343=DIRECTION('',(0.,5.20417042793042E-16,-1.));
#344=DIRECTION('',(-1.,0.,0.));
#345=DIRECTION('',(0.,1.,5.20417042793042E-16));
#346=DIRECTION('',(0.,-5.20417042793042E-16,1.));
#347=DIRECTION('',(0.,-1.,0.));
#348=DIRECTION('',(0.,-1.,0.));
#349=DIRECTION('',(-1.,0.,0.));
#350=DIRECTION('',(0.,0.,-1.));
#351=DIRECTION('',(-1.,0.,0.));
#352=DIRECTION('',(0.,-1.2399548841367E-16,1.));
#353=DIRECTION('',(0.,-1.2399548841367E-16,1.));
#354=DIRECTION('',(-1.,0.,0.));
#355=DIRECTION('',(0.,-1.,-1.2399548841367E-16));
#356=DIRECTION('',(0.,1.2399548841367E-16,-1.));
#357=DIRECTION('',(0.,1.,0.));
#358=DIRECTION('',(0.,1.,0.));
#359=DIRECTION('',(0.,0.,1.));
#360=DIRECTION('',(1.,0.,0.));
#361=DIRECTION('',(-1.,0.,0.));
#362=DIRECTION('',(0.,0.,1.));
#363=DIRECTION('',(-1.,0.,0.));
#364=DIRECTION('',(0.,0.,1.));
#365=DIRECTION('',(-1.,0.,0.));
#366=DIRECTION('',(0.,0.,1.));
#367=DIRECTION('',(-1.,0.,0.));
#368=DIRECTION('',(0.,0.,1.));
#369=DIRECTION('',(-1.,0.,0.));
#370=DIRECTION('',(0.,0.,1.));
#371=DIRECTION('',(-1.,0.,0.));
#372=DIRECTION('',(0.,0.,1.));
#373=DIRECTION('',(-1.,0.,0.));
#374=DIRECTION('',(0.,0.,1.));
#375=DIRECTION('',(-1.,0.,0.));
#376=DIRECTION('',(0.,0.,1.));
#377=DIRECTION('',(1.,0.,0.));
#378=DIRECTION('',(0.,0.,1.));
#379=DIRECTION('',(-1.,0.,0.));
#380=DIRECTION('',(0.,0.,1.));
#381=DIRECTION('',(-1.,0.,0.));
#382=DIRECTION('',(0.,0.,1.));
#383=DIRECTION('',(1.,0.,0.));
#384=DIRECTION('',(0.,0.,1.));
#385=DIRECTION('',(-1.,0.,0.));
#386=DIRECTION('',(0.,0.,1.));
#387=DIRECTION('',(-1.,0.,0.));
#388=DIRECTION('',(0.,0.,1.));
#389=DIRECTION('',(0.,1.,0.));
#390=DIRECTION('',(1.,0.,0.));
#391=DIRECTION('',(0.,-1.,0.));
#392=DIRECTION('',(0.,0.,-0.999999999999999));
#393=DIRECTION('',(0.,1.,0.));
#394=DIRECTION('',(0.,0.,1.));
#395=DIRECTION('',(0.,1.,0.));
#396=DIRECTION('',(1.,0.,0.));
#397=DIRECTION('',(0.,-1.,0.));
#398=DIRECTION('',(0.,0.,-1.));
#399=DIRECTION('',(0.,1.,0.));
#400=DIRECTION('',(0.,0.,1.));
#401=DIRECTION('',(1.,0.,0.));
#402=DIRECTION('',(0.,0.,1.));
#403=DIRECTION('',(-1.,0.,0.));
#404=DIRECTION('',(0.,0.,1.));
#405=DIRECTION('',(-1.,0.,0.));
#406=DIRECTION('',(0.,0.,1.));
#407=DIRECTION('',(-1.,0.,0.));
#408=DIRECTION('',(0.,0.,1.));
#409=DIRECTION('',(1.,0.,0.));
#410=DIRECTION('',(0.,0.,1.));
#411=DIRECTION('',(-1.,0.,0.));
#412=DIRECTION('',(0.,0.,1.));
#413=DIRECTION('',(-1.,0.,0.));
#414=DIRECTION('',(0.,0.,1.));
#415=DIRECTION('',(-1.,0.,0.));
#416=DIRECTION('',(0.,0.,1.));
#417=DIRECTION('',(-1.,0.,0.));
#418=DIRECTION('',(0.,0.,1.));
#419=DIRECTION('',(-1.,0.,0.));
#420=DIRECTION('',(0.,0.,1.));
#421=CARTESIAN_POINT('',(0.,0.,0.));
#422=CARTESIAN_POINT('',(2.,7.,-11.01));
#423=CARTESIAN_POINT('',(3.,7.,-11.01));
#424=CARTESIAN_POINT('',(2.,7.,-8.99999999999999));
#425=CARTESIAN_POINT('',(3.,7.,-8.99999999999999));
#426=CARTESIAN_POINT('',(0.,7.,0.));
#427=CARTESIAN_POINT('',(0.,7.,0.));
#428=CARTESIAN_POINT('',(0.,7.00000000000001,-20.));
#429=CARTESIAN_POINT('',(4.,7.,0.));
#430=CARTESIAN_POINT('',(4.,7.,0.));
#431=CARTESIAN_POINT('',(4.,7.,0.));
#432=CARTESIAN_POINT('',(4.,7.00000000000001,-20.));
#433=CARTESIAN_POINT('',(4.,7.00000000000001,-20.));
#434=CARTESIAN_POINT('',(4.,7.,0.));
#435=CARTESIAN_POINT('',(0.,7.00000000000001,-20.));
#436=CARTESIAN_POINT('',(0.,2.60208521396521E-15,-20.));
#437=CARTESIAN_POINT('',(4.,7.00000000000001,-20.));
#438=CARTESIAN_POINT('',(4.,2.60208521396521E-15,-20.));
#439=CARTESIAN_POINT('',(4.,2.60208521396521E-15,-20.));
#440=CARTESIAN_POINT('',(4.,7.00000000000001,-20.));
#441=CARTESIAN_POINT('',(0.,2.47990976827339E-15,-20.));
#442=CARTESIAN_POINT('',(0.,0.,0.));
#443=CARTESIAN_POINT('',(4.,2.47990976827339E-15,-20.));
#444=CARTESIAN_POINT('',(4.,0.,0.));
#445=CARTESIAN_POINT('',(4.,0.,0.));
#446=CARTESIAN_POINT('',(4.,2.47990976827339E-15,-20.));
#447=CARTESIAN_POINT('',(0.,0.,0.));
#448=CARTESIAN_POINT('',(4.,0.,0.));
#449=CARTESIAN_POINT('',(4.,0.,0.));
#450=CARTESIAN_POINT('',(4.,3.50000000000001,-16.5));
#451=CARTESIAN_POINT('',(4.,3.50000000000001,-14.9));
#452=CARTESIAN_POINT('',(4.,3.5,-3.5));
#453=CARTESIAN_POINT('',(4.,3.5,-1.9));
#454=CARTESIAN_POINT('',(4.,0.,0.));
#455=CARTESIAN_POINT('',(0.,3.50000000000001,-16.5));
#456=CARTESIAN_POINT('',(0.,3.50000000000001,-13.65));
#457=CARTESIAN_POINT('',(0.,3.5,-3.5));
#458=CARTESIAN_POINT('',(0.,3.5,-0.65));
#459=CARTESIAN_POINT('',(0.,1.5,-11.5));
#460=CARTESIAN_POINT('',(0.,1.5,-11.));
#461=CARTESIAN_POINT('',(0.,1.5,-8.50000000000001));
#462=CARTESIAN_POINT('',(0.,1.5,-8.00000000000001));
#463=CARTESIAN_POINT('',(0.,0.,0.));
#464=CARTESIAN_POINT('',(0.05,1.5,-8.50000000000001));
#465=CARTESIAN_POINT('',(0.05,1.5,-8.00000000000001));
#466=CARTESIAN_POINT('',(0.05,1.5,-8.50000000000001));
#467=CARTESIAN_POINT('',(0.05,1.5,-8.50000000000001));
#468=CARTESIAN_POINT('',(0.05,1.5,-11.5));
#469=CARTESIAN_POINT('',(0.05,1.5,-11.));
#470=CARTESIAN_POINT('',(0.05,1.5,-11.5));
#471=CARTESIAN_POINT('',(0.05,1.5,-11.5));
#472=CARTESIAN_POINT('',(2.,27.,-8.99999999999999));
#473=CARTESIAN_POINT('',(3.,27.,-8.99999999999999));
#474=CARTESIAN_POINT('',(2.,27.,-8.99999999999999));
#475=CARTESIAN_POINT('',(2.,27.,-8.99999999999999));
#476=CARTESIAN_POINT('',(2.,27.,-11.01));
#477=CARTESIAN_POINT('',(3.,27.,-11.01));
#478=CARTESIAN_POINT('',(2.,27.,-11.01));
#479=CARTESIAN_POINT('',(2.,27.,-11.01));
#480=CARTESIAN_POINT('',(0.95,3.5,-3.5));
#481=CARTESIAN_POINT('',(0.95,3.5,-0.65));
#482=CARTESIAN_POINT('',(0.95,3.5,-3.5));
#483=CARTESIAN_POINT('',(0.95,3.5,-3.5));
#484=CARTESIAN_POINT('',(0.95,3.5,-1.9));
#485=CARTESIAN_POINT('',(0.95,3.5,-3.5));
#486=CARTESIAN_POINT('',(0.95,3.50000000000001,-16.5));
#487=CARTESIAN_POINT('',(0.95,3.50000000000001,-13.65));
#488=CARTESIAN_POINT('',(0.95,3.50000000000001,-16.5));
#489=CARTESIAN_POINT('',(0.95,3.50000000000001,-16.5));
#490=CARTESIAN_POINT('',(0.95,3.50000000000001,-14.9));
#491=CARTESIAN_POINT('',(0.95,3.50000000000001,-16.5));
#492=CARTESIAN_POINT('',(5.,3.50000000000001,-16.5));
#493=CARTESIAN_POINT('',(5.,3.5,-3.5));
#494=MECHANICAL_DESIGN_GEOMETRIC_PRESENTATION_REPRESENTATION('',(#24),#495);
#495=(
GEOMETRIC_REPRESENTATION_CONTEXT(3)
GLOBAL_UNCERTAINTY_ASSIGNED_CONTEXT((#496))
GLOBAL_UNIT_ASSIGNED_CONTEXT((#502,#498,#497))
REPRESENTATION_CONTEXT('EX-FD42','TOP_LEVEL_ASSEMBLY_PART')
);
#496=UNCERTAINTY_MEASURE_WITH_UNIT(LENGTH_MEASURE(2.E-5),#502,
'DISTANCE_ACCURACY_VALUE','Maximum Tolerance applied to model');
#497=(
NAMED_UNIT(*)
SI_UNIT($,.STERADIAN.)
SOLID_ANGLE_UNIT()
);
#498=(
CONVERSION_BASED_UNIT('DEGREE',#500)
NAMED_UNIT(#499)
PLANE_ANGLE_UNIT()
);
#499=DIMENSIONAL_EXPONENTS(0.,0.,0.,0.,0.,0.,0.);
#500=PLANE_ANGLE_MEASURE_WITH_UNIT(PLANE_ANGLE_MEASURE(0.0174532925),#501);
#501=(
NAMED_UNIT(*)
PLANE_ANGLE_UNIT()
SI_UNIT($,.RADIAN.)
);
#502=(
LENGTH_UNIT()
NAMED_UNIT(*)
SI_UNIT(.MILLI.,.METRE.)
);
ENDSEC;
END-ISO-10303-21;
